3 Doors Down

Be Somebody Tabs



More from 3 Doors Down

3 Doors Down Tabs
3 Doors Down Chords
3 Doors Down Bass
3 Doors Down Lyrics

tabs-database.com[http://www.tabs-database.com.com/]
Tabbed by:Felix Petrowitsch.

Band name:3 Doors Down.

Song Name:Be Somebody.

Album:Seventeen Days.









-------------------------NOTE------------------------------



|---------------------------------------------------------------------------------------------|

| I was looking my tabs and I noticed that some people just copy them and make them theirs... |

| I Really hate those people...At least ask or wathever....Thanks |

|---------------------------------------------------------------------------------------------|













Good Song....Try it!









Intro/Verse.

|--------------------------------------|

|--0h1-----0h1------------1-------3----|

|------2-------0--------0-------0------|

|--------2-------0----2-------0--------|

|-------------------3-------2----------|

|--------------------------------------|



|--------------------------------------|

|--0h1-----0h1------------1-----1------|

|------2-------0--------0---------0----|

|--------2-------0----2-------0--------|

|-------------------3-------2----------|

|--------------------------------------|



Pre Corus.

|---------------------------------------------------------|

|------------------0-------------------------1--------1---|

|--------0-------2---2------------0--------0--------0-----|

|------3-------2-------2--------3--------2--------0-------|

|----3-------0-----------0----3--------3--------2---------|

|--1------------------------1-----------------------------|



|----------------------------------------------------------|

|------------------0---------------------------------------|

|--------0-------2---2------------0------------------------|

|------3-------2-------2--------2---2-------2-2-2-2-2-2-2--|

|----3-------0-----------0----2-------2-----2-2-2-2-2-2-2--|

|--1------------------------0-----------0---0-0-0-0-0-0-0--|





Corus.



Asus2 C G Dsus2

I'm Tying to be somebody,I'm not tying to be somebody else



Asus2 C

This life is mine I'm living



G Dsus2

Don't you know me? I wont ever let you down





Solo.

1|-----------------------------------------------------------------------------

2|-0h1-1-1p0-0-3-3-3h1-1-0h1-1-1p0-0-6-6-6h5-5-5h6-3-5---3---------------------

3|-----------------------------------------------------5---5-4~5-4-5/7-5-4~----

4|-----------------------------------------------------------------------------



---------------------------|

----------------5-3~-------|

-4h5----4h5----------------|

------7------7-------------|





Verse.

|--------------------------------------|

|--0h1-----0h1------------1-------3----|

|------2-------0--------0-------0------|

|--------2-------0----2-------0--------|

|-------------------3-------2----------|

|--------------------------------------|



|--------------------------------------|

|--0h1-----0h1------------1-----1------|

|------2-------0--------0---------0----|

|--------2-------0----2-------0--------|

|-------------------3-------2----------|

|--------------------------------------|





Pre Corus.

|---------------------------------------------------------|

|------------------0-------------------------1--------1---|

|--------0-------2---2------------0--------0--------0-----|

|------3-------2-------2--------3--------2--------0-------|

|----3-------0-----------0----3--------3--------2---------|

|--1------------------------1-----------------------------|



|----------------------------------------------------------|

|------------------0---------------------------------------|

|--------0-------2---2------------0------------------------|

|------3-------2-------2--------2---2-------2-2-2-2-2-2-2--|

|----3-------0-----------0----2-------2-----2-2-2-2-2-2-2--|

|--1------------------------0-----------0---0-0-0-0-0-0-0--|





Corus.



Asus2 C G Dsus2

I'm Tying to be somebody,I'm not tying to be somebody else



Asus2 C

This life is mine I'm living



G Dsus2

Don't you know me? I wont ever let you down





(*=Palm mute)



|-----0--|--------|-----0--|--------------------|

|-----0--|--------|-----0--|--------------------|

|--5--2--|--5--4--|--5--2--|--------------------|x2

|--5--2--|--5--4--|--5--2--|--3-3-3-3---5-5-5---|

|--3--0--|--3--2--|--3--0--|--3-3-3-3---5-5-5---|

|--------|--------|--------|--1-1-1-1---3-3-3---|

*******



I'M WORKING ON WHAT COMES NOW...







Corus.



Asus2 C G Dsus2

I'm Tying to be somebody,I'm not tying to be somebody else



Asus2 C

This life is mine I'm living



G Dsus2

Don't you know me? I wont ever let you down







And....



|-----0--|--------|-----0--|--------------------|

|-----0--|--------|-----0--|--------------------|

|--5--2--|--5--4--|--5--2--|--------------------|x2

|--5--2--|--5--4--|--5--2--|--3-3-3-3---5-5-5---|

|--3--0--|--3--2--|--3--0--|--3-3-3-3---5-5-5---|

|--------|--------|--------|--1-1-1-1---3-3-3---|

*******







Cool.....E-mail me if any douts or corrections to:webmaster at tabs-database.com.com
Added by tabs-database.com and our distinguished partners
Get this song at amazon.com      Ebay     Ringtones Ringtones  


Learn to play: Songwriting, Piano, Harmonica, Guitar
Also available at Muzikum: 3 Doors Down - Be Somebody lyrics

Related 3 Doors Down Tabs

Real Life tabs
Kryptonite tabs
Not Enough tabs
Down Later tabs
Its Not Me tabs
Here By My (acoustic) tabs
Citizen Soldier tabs
Be Like That tabs
Loser5 tabs
Duck And Run tabs
Duck And Run Intro tabs
Life Of My Own tabs
Duck And Run3 tabs
This Time tabs
Betterlife tabs
By My Side tabs
Duck & Run tabs
Let Me Go tabs
Down Poison tabs
Here By Me tabs


Guitar Tabs









All tabs are property and copyright of their owners. All tabs provided for educational purposes only. Privacy Policy, DMCA