3 Doors Down

Be Like That (Version 2) Chords, Tabs



More from 3 Doors Down

3 Doors Down Tabs
3 Doors Down Chords
3 Doors Down Bass
3 Doors Down Lyrics

#-----------------------------PLEASE NOTE-------------------------------------#
#This OLGA file is the author's own work and represents their interpretation  #
#of the song. You may only use this file for private study, scholarship, or   #
#research. Remember to view this file in Courier, or some other monospaced    #
#font. See http://www.olga.net/faq/ for more information.                     #
#-----------------------------------------------------------------------------#







Subject: 3/3_doors_down/be_like_that.tab

"Be Like That" - 3 Doors Down
Taken from the album "The Better Life"
Intro
g* d* d* g* d* g* d* d* d* a* e* d* a* d* g* e* d*
E ----------3-------------------------------------------------
B ----------------3-----------------5-------------------------
G ----------------------------7-----------7-----------------7-
D ----5--------------5-----------7-----------7--------5-------
A -------5--------------5--5--------------------5--7-----7----
E -3-----------------------------------------------0----------
e* d* g* c* g* c* d* e* d* g*
E ----------------------------0----------------------
B ----5-----------------3--------3-------------------
G -------7--------o-----------------0-----7--9--5----
D ----------5--------------------------5--7--9--5----
A -------------3-----3-----------------5--5--7--3----
E -------------------------------------3-------------
The last 4 power chords at the end are what's played for the chorus
The following are the chords for the bridge
E ---------------
B ---------------
G ----------7----
D -7--10-5--7----
A -7--10-5--5----
E -5--8--3-------
Verse 1(guitar 1 continues intro)
He spends....
Verse 2(guitar 1 continues intro, guitar 2(electric) strums
following chords once)
(G) (D)
(Em) (C)
(G) (D)
(Em) (C)
Chorus(both guitars play following chords)
(G) (D)
(Em) (C)
(G) (D)
(Em) (C)
Middle 1(guitar 2 plays solo, guitar 1 strums rythym)
C,G
C,G,E,C
Verse 3(guitars as verse 1)
She spends...
Verse 4(guitars as verse 2)
With a...
Chorus
(G) (D)
(Em) (C)
(G) (D)
(Em) (C)
(guitars continue as for chorus)
..falling into blessed dreams
we'll run away
Middle 2(guitar as intro)
If I...
Repeat chorus X2
Outro
(E) (D)
(E) (D)
(E) (D)
(G)  
There was just a little problem with the end of the intro but I fixed it
and it sounds perfect now. I hope you enjoy it.
Get this song at amazon.com      Ebay     Ringtones Ringtones  


Learn to play: Songwriting, Piano, Harmonica, Guitar
301 Moved Permanently

Moved Permanently

The document has moved here.

Related 3 Doors Down Chords

Here Without You chords
Away From The Sun chords
Going Down In Flames chords
Ticket To Heaven chords
By My Side chords
Duck And Run chords
Life Of My Own chords
The Road Im On chords
Not Enough chords
Be Like That (Version 2) chords
Heaven chords
Every Time You Go chords


Guitar Tabs




All tabs are property and copyright of their owners. All tabs provided for educational purposes only. Privacy Policy, DMCA