3 Doors Down

Be Like Thaat Tabs



More from 3 Doors Down

3 Doors Down Tabs
3 Doors Down Chords
3 Doors Down Bass
3 Doors Down Lyrics

Title: Be Like That

Artist: 3 Doors Down
Album: A Better Life
Tuning: Standard Tuning
Transcribed By: Joe Uttaro (junk_3@hotmail.com)

(Intro/Verse)
|-------3---------|-----0-------|---------0-----|---------0-----
|---------3-------|-3-----3-----|-------3---3---|-------3---3---
|---0-------0-----|---2-----2---|-------------0-|-----0-------0-
|-----0-------0-0-|-----------0-|-----0---------|---2-----------
|-----------------|-------------|---2-----------|-3-------------
|-3---------------|-------------|-0-------------|---------------

(Chorus)
|-3-|-0-|-0-|-0-|
|-3-|-3-|-3-|-3-|
|-0-|-2-|-0-|-0-|
|-0-|-0-|-0-|-2-|
|-2-|-0-|-2-|-3-|
|-3-|-0-|-0-|-0-|

Email me with comments: junk_3@hotmail.com
Get this song at amazon.com      Ebay     Ringtones Ringtones  


Learn to play: Songwriting, Piano, Harmonica, Guitar
More 3 Doors Down lyrics available at Muzikum

Related 3 Doors Down Tabs

Smack tabs
Kryptonite Bass tabs
I Feel You tabs
This Time tabs
Dangerous Game tabs
The Road Im On tabs
I Woke Up In London tabs
Here Without You tabs
Later tabs
Somebody tabs
Be Like That3 tabs
Be Somebody tabs
Ill Give You Anything tabs
Down Later tabs
By My Side Intro tabs
My World tabs
Behind Those Eyes tabs
Better Life tabs
If I Could Be Like That tabs
Duck And Run tabs


Guitar Tabs









All tabs are property and copyright of their owners. All tabs provided for educational purposes only. Privacy Policy, DMCA