3 Doors Down

Away From The Sun Chords, Tabs



More from 3 Doors Down

3 Doors Down Tabs
3 Doors Down Chords
3 Doors Down Bass
3 Doors Down Lyrics

#-----------------------------PLEASE NOTE-------------------------------------#
#This OLGA file is the author's own work and represents their interpretation  #
#of the song. You may only use this file for private study, scholarship, or   #
#research. Remember to view this file in Courier, or some other monospaced    #
#font. See http://www.olga.net/faq/ for more information.                     #
#-----------------------------------------------------------------------------#



Subject: 3/3_doors_down/away_from_the_sun.tab

Artist:  3 Doors Down
Title:   Away from the Sun
Album:   Away from the Sun
Submitted and Tabbed by Ghost
         
 

 








Guitar 1:  Clean with Phasor
Guitar 2:  Dirt, no effects
 
Not completely sure of the scale thing at the end of the chorus phrase,
any imput welcome. 
Theres a second guitar picking out the chords in the bridge too.  Kinda
hard to hear all of that.
Watch the Gadd4 in the bridge.
Have fun, this is an awesome song!
Verse
 
    Gtr I
    F?               Am7           C                G? 
||--------------------------------------------------------------0---|
||o---1-----0h1---1---1-----0h1---1---1-----0h1---1---1-----0-3-----|
||------0---------------0---------------0---------------0-----------|
||--3-----3-----3---2-----2-----2-----------------------------------|
||o---------------------------------3-----3-----3---2-----2---------|
||------------------------------------------------------------------|
 

  F?                 Am7              G                      3x
|-----------------|------------------------------------||----|
|---1-----0h1---1-|---1-----0h1---1----3-1-0---3-1-0--o||----|
|-----0-----------|-----0------------------------------||----|
|-3-----3-----3---|-2-----2-----2----------------------||----|
|-----------------|-----------------------------------o||----|
|-----------------|------------------3-------3---------||----|
 
Chorus
 
  Gtr II
F5                        F5
|-------------------------------------------|
|-------------------------------------------|
|--------------0-----0----------------------|
|-3----------0-----0------3-----------------|
|-3--------3-----2-----3--3--------3-5-7----|
|-1-----------------------1------5-------5/1|
 
 
 
Bridge and Ending
GtrII
  Am       Gadd4    F      G
|-0--------3--------1------3------|
|-1--------1--------1------3------|
|-2--------0--------2------0------|
|-2--------0--------3------0------|
|----------2--------3------2------|
|----------3--------1------3------|
 

 








lead at the end of the bridge
 
e---8s10-10-10-10-8-10
Get this song at amazon.com      Ebay     Ringtones Ringtones  


Learn to play: Songwriting, Piano, Harmonica, Guitar
301 Moved Permanently

Moved Permanently

The document has moved here.

Related 3 Doors Down Chords

Here Without You chords
Away From The Sun chords
Going Down In Flames chords
Ticket To Heaven chords
By My Side chords
Duck And Run chords
Life Of My Own chords
The Road Im On chords
Not Enough chords
Be Like That (Version 2) chords
Heaven chords
Every Time You Go chords


Guitar Tabs




All tabs are property and copyright of their owners. All tabs provided for educational purposes only. Privacy Policy, DMCA