2 Minutos

2 Minutos - Q E P D guitar tab

-------------------------------------------------------------------------------

Q.E.P.D - 2 Minutos

-------------------------------------------------------------------------------

Trabbed by: Daniel Garzón

e ----------------------------------------

B ----------------------------------------

G ---------------------------------------

D ---------------------------------------- ( 2 )

A -----0---0—0-0---3---2-2—0-0----0-------

E -----------------------------------3----

e ----------------------------------------

G ----------------------------------------

G -----------4-4--5-5--4-/--5-------------

D ------7-7--4-4--5-5--4-/--5------------- ( 16 )

A ------7-7--2-2--3-3--2-/--3-------------

E------ 5-5-------------------------------

e----------------------------------------

B----------------------------------------

G--------9---------7---------------------

D--------9---------7---------------------

A--------7---------5---------------------

E ---------------------------------------

Any questions e-mail me at elchamfle@laciudad.com.

-------------------------------------------------------------------------------

Get this song at:  amazon.com sheetmusicplus.com

Share your thoughts

0 Comments found