12 Stones

12 Stones - Let Go guitar tab

One of my favorite songs by 12 stones, very powerful lyrics & great song. Ive seen the

versions and they're all slightly off in different parts. I play this song in standard so

what i tabbed it in, this tab should be near perfection & almost identical to the song.

e|-1-----1---1/3---0-----0---0h1------------------------------|

B|--------------------------------1---3p1---3--1--1-1/3-3-----|

G|---2-----2---------2-----2------------------------------2---|

D|-0---0-----0----------------------3-------------------------|

A|-----------------3---3-----3----1-------1-------1-1/3---0---|

D|------------------------------------------------------------|

TIP:^ Use middle and ring finger for these

or it becomes harder to slide up and end the riff.

Solo #1

e|--------------------------------------------10------------|

B|-----------------------------------------10----10-13b15---|

G|----10-12-10-12b13-10-12-10/7------13b14------------------|

D|-12-------------------------------------------------------|

A|----------------------------------------------------------|

D|----------------------------------------------------------|

Solo #1 Continued:

e|------------------------------------------|

B|-13b15b13-10-13-10------------------------|

G|-------------------12p10----10------------|

D|-------------------------12----12-10-12---|

A|------------------------------------------|

D|------------------------------------------|

((Verse:))

Dm Csus2 Bsus2

I feel so alone, again..

Solo #2:

e|----------------------------------------------|

B|----------------------------------------------|

G|-------------------10-10-12b14-12b14b12-10----|

D|-------10----10-12-------------------------12-|

A|-10-12----12----------------------------------|

D|----------------------------------------------|

Dm Csus2 Bsus2

I know that i need you, to help me make it through..the night..

Dm Csus2 Bsus2

And i pray that you...believe...in me...

Solo #3:

e|---------------------------------------|

B|---------------------------------------|

G|---------------------------------------|

D|-----------------------10--------------|

A|-------8----8-10-10/12----12\\10-8------|

D|-10-12---12-----------------------12---|

Dm Csus2 Bsus2

You gave me my strength...to face another day alone.

((Chorus:))

(Guitar 1)

e|--------------------------------------------------------|

B|------------------------------------6-------------------|

G|-----------5--5---3---3-3-3-3-------5-5-5--3--3-3-3-3---|

D|-----3--3--5--5---3---3-3-3-3-----3-3-5-5--3--3-3-3-3---|

A|-----3--3--3--5---1---1-1-1-1-----3-3-3-3--1--1-1-1-1---|

D|-2-2-3--3---------------------0-2-3-3-------------------|

(Guitar 2 starts here------------------------^)

(Guitar 2)

e|-----------------------------------------------|

B|-----------------------------------------------|

G|-7-7-7--9-9-9--10-10-10--12-12-12--14-14/15\\14-|

D|-----------------------------------------------|

A|-5-5-5--7-7-7--8--8--8---10-10-10--12-12/13\\12-|

D|-----------------------------------------------|

I need you now my friend, more than you know...

When will we meet again, cause i cant let go

of you

Then repeat Chorus with both guitars playing as guitar 1 and solo:

Solo #4:

e|---------------------------------------------------------------------|

B|---------------------------------------------------------------------|

G|-------------------------------------------10---10-----9/10----------|

D|-12--10-12-10--10-12-10--------10----10h12----12---12-------12-10----|

A|-------------------------10/12----12------------------------------10-|

D|---------------------------------------------------------------------|

Solo #4 Continued:

e|-------------------------|

B|-------------------------|

G|-9/10--------------------|

D|------12-10--------------|

A|------------10--8/10\\8---|

D|-------------------------|

((Verse 2:))

Dm Csus2 Bsus2

This world brings me down...again..

Solo #5

e|-------10-----------------------------------------|

B|----10----10-13--13b15b13-10----10----------------|

G|-12--------------------------12----12-10----------|

D|-----------------------------------------12-10-12-|

A|--------------------------------------------------|

D|--------------------------------------------------|

Dm Csus2 Bsus2

I know that i, need you...to help me make it through and i..

Dm Csus2 Bsus2

Darling i know that you're the one...for me

Solo #6

e|---------------------------------------------|

B|---------------------------------------------|

G|---------------------------------------------|

D|-------10----10-12-10----10------------------|

A|-10/12----12----------12----12-10\\8-10-8-----|

D|-----------------------------------------12--|

Dm Csus2 Bsus2

You gave me my strength, to face another day alone.

((Repeat chorus))

C5 G5 Bb5 D5 F5 C5

As time passes by i find, things never seem to change

Solo #7:

e|-----------------------------|

B|-----------------------------|

G|-12/14--12\\10----10----------|

D|--------------14----14/15\\14-|

A|-----------------------------|

D|-----------------------------|

C5 G5 Bb5 G5 A5 Bb5

When i feel alone, you bring me back to you....

((Repeat chorus for final time))

End song with same riff for introduction:

e|-1-----1---1/3---0-----0---0h1------------------------------|

B|--------------------------------1---3p1---3--1--1-1/3-3-----|

G|---2-----2---------2-----2------------------------------2---|

D|-0---0-----0----------------------3-------------------------|

A|-----------------3---3-----3----1-------1-------1-1/3---0---|

D|------------------------------------------------------------|

No i cant...let...you..go

***********************************

((Chords used:))

Dm-xx0131

Csus2-xx35533

Bbsus2-xx13311

C5-x355xx

G5-555xxx

Bb5-x133xx

A5-x022xx

D5-x577xx

F5-x81010xx

===================================

/ - Slide up

\\ - Slide down

B - bend

2b4 - bend note 2 up to reach note 4

h - hammeron

p - pulloff

====================================

Any comments on things ive missed welcome !Added by tabs-database.com and our distinguished partners

Get this song at:  amazon.com

Share your thoughts

0 Comments found