12 Stones

The way i feel Tabs



More from 12 Stones

12 Stones Tabs
12 Stones Chords
12 Stones Bass
12 Stones Lyrics

The Way I Feel

Tuning - Down 1 step, drop D

Intro/Verse:
C ------------------------------------
A ------------------------------------
F ------------------------------------
C -----11-----11-------11-----11---11-
F ---9------9--------9----9-----------
C -0------0------0-9--------9----9----

C ------------------------------------
A ------------------------------------
F ---------------------------------11-
C -----11-----11-------11-----11------
F ---9------9--------9----9-----------
C -0------0------0-9--------9----9----

Chorus:

C -----------------------------
A -----------------------------
F -----------------------------
C -0---0-0-9--93--3-3-5-5-5-3-
F -0---0-0-9--93--3-3-5-5-5-3-
C -0---0-0-9--93--3-3-5-5-5-3-

C ----------------
A ----------------
F --------------5-
C -0---0-0-9--95-
F -0---0-0-9--93-
C -0---0-0-9--9---

For the soft chorus, just play the full chords
instead of the shortened 3 string ones.
The solo still needs some work, so I'll get
that as soon as I can.
Get this song at amazon.com      Ebay     Ringtones Ringtones  


Learn to play: Songwriting, Piano, Harmonica, Guitar
Also available at Muzikum: 12 Stones - The way I feel lyrics

Related 12 Stones Tabs

In closing tabs
Broken2 tabs
Photograph tabs
Speak your mind tabs
12 Stones tabs
Last song tabs
Home tabs
Lifeless Live tabs
Lie To Me tabs
Shadows tabs
In My Head tabs
Stay tabs
My Life tabs
The way i feel tabs
Fade Away tabs
Bitter tabs
Crash tabs
Open Your Eyes tabs
Potters Field tabs
Let Go tabs


Guitar Tabs









All tabs are property and copyright of their owners. All tabs provided for educational purposes only. Privacy Policy, DMCA