12 Stones

Lie To Me Tabs



More from 12 Stones

12 Stones Tabs
12 Stones Chords
12 Stones Bass
12 Stones Lyrics

Song:   Lie to Me

Artist: 12 Stones

Tabbed: Griffin737



Tuning: Drop C (low to high - CGCFAD)



this is my first tab



Intro- Guitar 1

E|------------------|

B|-9-------9-9-10---|

G|---9---9--------9-| X2

D|-----9------------|

A|------------------|

D|------------------|



Intro- Guitar 2

D|------------------|

A|------------------|

F|-----4------------| x2

C|-6---4----7-----2-|

G|-6---2----7-----2-|

C|-6--------7-----2-|



Verse 1- Guitar 1 (only play once)

D|--------------------------------------------|

A|----------------------------------5/9-------|

F|--------------------------------------------|

C|--------------------------------------------|

G|--------------------------------------------|

C|--------------------------------------------|



Verse 1- Guitar 2

D|--------------------------------------------|

A|--------------------------------------------|

F|------1-------1----------1---------1--------|

C|----2---2---2---2------2---2---------42-----|X4

G|--4-------2-------42-0-----------2----------|

C|-----------------------------2--------------|



Chorus- Guitar 1 (enters about halfway through)

D|------------------------------------|

A|------5-----5-----5-----4-----------|

F|----24-4--24-4--14-4---4-4----------|X2

C|----------------------4-------------|

G|------------------------------------|

C|------------------------------------|



Chorus- Guitar 2

D|-----------------------------------------

A|-----------------------------------------

F|-----------------------------------------

C|-4444-7777-2222-6666-4444-7777-2222-6666-

G|-4444-7777-2222-6666-4444-7777-2222-6666-

C|-4444-7777-2222-6666-4444-7777-2222-6666-



Chorus cont'd- Guitar 2

D------------------------------------------------|

A------------------------------------------------|

F------------------------------------------------|

C-4444-7777-2222-4444-4444-7777-2222-4444-4--4-7-|

G-4444-7777-2222-4444-4444-7777-2222-4444-4--4-7-|

C-4444-7777-2222-4444-4444-7777-2222-4444-4--4-7-|



Re-intro- Guitar 1

D|-------------------------|

A|---9-----------9--10--9--|

F|------9--8--9------------|

C|-------------------------|

G|-------------------------|

C|-------------------------|



Re-intro- Guitar 2

D|--------------------------------------------|

A|--------------------------------------------|

F|------1-------1----------1---------1--------|

C|----2---2---2---2------2---2---------4p2----|

G|--4-------2-------42-0-----------2----------|

C|-----------------------------2--------------|



Verse 1- Guitar 1 (only play once)

D|--------------------------------------------|

A|----------------------------------5/9-------|

F|--------------------------------------------|

C|--------------------------------------------|

G|--------------------------------------------|

C|--------------------------------------------|



Verse 2- Guitar 2

D|--------------------------------------------|

A|--------------------------------------------|

F|------1-------1----------1---------1--------|

C|----2---2---2---2------2---2---------42-----|X4

G|--4-------2-------42-0-----------2----------|

C|-----------------------------2--------------|

Chorus- Guitar 1 (enters about halfway through)

D|------------------------------------|

A|------5-----5-----5-----4-----------|

F|----24-4--24-4--14-4---4-4----------|X2

C|----------------------4-------------|

G|------------------------------------|

C|------------------------------------|



Chorus- Guitar 2

D|-----------------------------------------

A|-----------------------------------------

F|-----------------------------------------

C|-4444-7777-2222-6666-4444-7777-2222-6666-

G|-4444-7777-2222-6666-4444-7777-2222-6666-

C|-4444-7777-2222-6666-4444-7777-2222-6666-



Chorus cont'd- Guitar 2

D----------------------------------------------------|

A----------------------------------------------------|

F----------------------------------------------------|

C-4444-7777-2222-4444-4444-7777-2222-4444-4447777777-|

G-4444-7777-2222-4444-4444-7777-2222-4444-4447777777-|

C-4444-7777-2222-4444-4444-7777-2222-4444-4447777777-|



Bridge- Guitar 1

D|--------------------------------------------------------------

A|----777-----777-----555-777999---777-----777---555---77-79----

F|--------------------------------------------------------------

C|--------------------------------------------------------------

G|--------------------------------------------------------------

C|--------------------------------------------------------------



Bridge- Guitar 2

D|--------------------------------------------------------------

A|--------------------------------------------------------------

F|-66-66---44-44---22-22--22-2/4-66-66---44-44---22-22--22-2/4--

C|-66-66---44-44---22-22--22-2/4-66-66---44-44---22-22--22-2/4--

G|-44-44---22-22---00-00--00-0/2-44-44---22-22---00-00--00-0/2--

C|--------------------------------------------------------------



Bridge cont'd Guitar 1

D-------------------------------|

A----5----5---4---5424----------|

F--24-4-14-4-4-4----------------|X2

C---------------4---------------|

G-------------------------------|

C-------------------------------|



Bridge cont'd Guitar 2

D -------------------------------------------|

A -------------------------------------------|

F -7777-6666-4444-444/6-7777-2222-4444-444/6-|

C -7777-6666-4444-444/6-7777-2222-4444-444/6-|

G -5555-4444-2222-222/4-5555-0000-2222-222/4-|

C -------------------------------------------|



Chorus- Guitar 1 (enters about halfway through)

D|------------------------------------|

A|------5-----5-----5-----4-----------|

F|----24-4--24-4--14-4---4-4----------|X2

C|----------------------4-------------|

G|------------------------------------|

C|------------------------------------|



Chorus- Guitar 2

D|-----------------------------------------

A|-----------------------------------------

F|-----------------------------------------

C|-44---77---2222-6666-4444-7777-2222-6666-

G|-44---77---2222-6666-4444-7777-2222-6666-

C|-44---77---2222-6666-4444-7777-2222-6666-



Chorus cont'd- Guitar 2

D----------------------------------------------------|

A----------------------------------------------------|

F----------------------------------------------------|

C-4444-7777-2222-4444-4444-7777-2222-4444-4447777777-|

G-4444-7777-2222-4444-4444-7777-2222-4444-4447777777-|

C-4444-7777-2222-4444-4444-7777-2222-4444-4447777777-|



Outro- Guitar 1

D|------------------------------|

A|------5-----5-----4---5424----|

F|----24-4--14-4---4-4----------|X2

C|----------------4-------------|

G|------------------------------|

C|------------------------------|



Outro- Guitar 2

D|----------------------------------------------|

A|----------------------------------------------|

F|----------------------------------------------|

C|----4444-2222-4444-6666-4444-2222-44444444----|

G|----4444-2222-4444-6666-4444-2222-44444444----|

C|----4444-2222-4444-6666-4444-2222-44444444----|



Outro (2)- Guitar 1

E|------------------|

B|-9-------9-9-10---|

G|---9---9--------9-| X2

D|-----9------------|

A|------------------|

D|------------------|



Outro (2)- Guitar 2

D|------------------|

A|------------------|

F|-----4------------| x2

C|-6---4----7-----2-|

G|-6---2----7-----2-|

C|-6--------7-----2-|





Added by tabs-database.com and our distinguished partners
Get this song at amazon.com      Ebay     Ringtones Ringtones  


Learn to play: Songwriting, Piano, Harmonica, Guitar
More 12 Stones lyrics available at Muzikum

Related 12 Stones Tabs

Broken tabs
Erics Song tabs
In My Head tabs
Potters Field tabs
Let Go (Daredevil Soundtrack) tabs
Running Out Of Pain tabs
The way i feel tabs
Broken3 tabs
Bitter tabs
Home tabs
Broken2 tabs
Stay tabs
It Was You tabs
Way I Feel tabs
Soulfire tabs
Soulfire Bass tabs
Last song tabs
Far Away tabs
Photograph tabs
Crash tabs


Guitar Tabs









All tabs are property and copyright of their owners. All tabs provided for educational purposes only. Privacy Policy, DMCA