10 Years

10 Years - Pacemaker guitar tab

"Pacemaker"

by 10 Years

a bonus track from "The Autumn Effect"

===================================================

Tuning:

Db Ab Db Gb Bb Eb

===================================================

When "The Autumn Effect" was released, several stores offered

bonus tracks available for download. "Pacemaker" was the bonus song

offered with album purchase at Best Buy, though it's been said it's

no longer available.

Ask around on the boards at www.10yearsmusic.com/boards. Someone is

bound to have a copy.

===================================================

Intro:

Guitar 1 -

Eb -------------------------------|

Bb -------------------------------|

Gb -------9-10-10-----------------|

Db ---7-7-7--7--7-7--3-3-3-3-3-3--|

Ab ---7-7-7--7--7-7--3-3-3-3-3-3--|

Db ---7-7-7--7--7-7--3-3-3-3-3-3--|

Eb --------------------------------|

Bb --------------------------------|

Gb --------------------------------|

Db ---0-0-0-0-0-0--3-3-3-3-3-3--7--|

Ab ---0-0-0-0-0-0--3-3-3-3-3-3--7--|

Db ---0-0-0-0-0-0--3-3-3-3-3-3--7--|

Guitar 2 (comes in during distorted part) -

Eb --------------------------------|

Bb --------------------------------|

Gb ---7-7-7-7-7-7--5-5-5-5-5-5-----|

Db -----------------------------7--|

Ab ---5-5-5-5-5-5--3-3-3-3-3-3--7--|

Db -----------------------------7--|

====================================================

Verses:

Guitar 1 -

1st Verse, play 2x

2nd Verse, play 1x

Eb ----------------------------------------|

Bb ----------------------------------------|

Gb ---------12-----------------------------|

Db ------14-------15----14----15~~-----14--|

Ab ---12-------12----12----12--------------|

Db ----------------------------------------|

Eb -----------------------------------------|

Bb -----------------------------------------|

Gb ---------12------------------------------|

Db ------14-------15----14-12---------------|

Ab ---12-------12----12-------15~~---12-14--|

Db -----------------------------------------|

Guitar 2 -

Only plays on 2nd Verse, play 2x, palm mute throughout

Eb ----------------------------|

Bb ----------------------------|

Gb ----------------------------|

Db ---7-7-7-7-7-7-7-7-7-7-5h7--|

Ab ---7-7-7-7-7-7-7-7-7-7-5h7--|

Db ---7-7-7-7-7-7-7-7-7-7-5h7--|

Eb ----------------------------|

Bb ----------------------------|

Gb ----------------------------|

Db ---0-0-0-0-0-0-0-0-0-0-0-0--|

Ab ---0-0-0-0-0-0-0-0-0-0-0-0--|

Db ---0-0-0-0-0-0-0-0-0-0-0-0--|

Eb ----------------------------|

Bb ----------------------------|

Gb ----------------------------|

Db ---3-3-3-3-3-3-3-3-3-3-3-3--|

Ab ---3-3-3-3-3-3-3-3-3-3-3-3--|

Db ---3-3-3-3-3-3-3-3-3-3-3-3--|

Eb -------------------------------|

Bb -------------------------------|

Gb -------------------------------|

Db ---5-5-5-5-5-5-10-10-10-5-5-5--|

Ab ---5-5-5-5-5-5-10-10-10-5-5-5--|

Db ---5-5-5-5-5-5-10-10-10-5-5-5--|

End of both verses -

Eb -------|

Bb -------|

Gb -------|

Db -------|

Ab -------|

Db --10b--|

===================================================

Chorus:

1st Chorus play 1x

2nd Chorus play 2x

Both Guitars -

Eb -------------------------------|

Bb -------------------------------|

Gb -------9-10-10-----------------| play 3x, then

Db ---7-7-7--7--7-7--3-3-3-3-3-3--|

Ab ---7-7-7--7--7-7--3-3-3-3-3-3--|

Db ---7-7-7--7--7-7--3-3-3-3-3-3--|

Guitar 1 -

Eb --------------------------------|

Bb --------------------------------|

Gb --------------------------------| play 1x

Db ---0-0-0-0-0-0--3-3-3-3-3-3--7--|

Ab ---0-0-0-0-0-0--3-3-3-3-3-3--7--|

Db ---0-0-0-0-0-0--3-3-3-3-3-3--7--|

Guitar 2 -

Eb --------------------------------|

Bb --------------------------------|

Gb ---7-7-7-7-7-7--5-5-5-5-5-5-----| play 1x

Db -----------------------------7--|

Ab ---5-5-5-5-5-5--3-3-3-3-3-3--7--|

Db -----------------------------7--|

===================================================

Bridge:

Guitar 1 -

Play 4x, no palm muting, then the ending

Eb ----------------------------|

Bb ----------------------------|

Gb ----------------------------|

Db ---7-7-7-7-7-7-7-7-7-7-5h7--|

Ab ---7-7-7-7-7-7-7-7-7-7-5h7--|

Db ---7-7-7-7-7-7-7-7-7-7-5h7--|

Eb ----------------------------|

Bb ----------------------------|

Gb ----------------------------|

Db ---0-0-0-0-0-0-0-0-0-0-0-0--|

Ab ---0-0-0-0-0-0-0-0-0-0-0-0--|

Db ---0-0-0-0-0-0-0-0-0-0-0-0--|

Eb ----------------------------|

Bb ----------------------------|

Gb ----------------------------|

Db ---3-3-3-3-3-3-3-3-3-3-3-3--|

Ab ---3-3-3-3-3-3-3-3-3-3-3-3--|

Db ---3-3-3-3-3-3-3-3-3-3-3-3--|

Eb -------------------------------|

Bb -------------------------------|

Gb -------------------------------|

Db ---5-5-5-5-5-5-10-10-10-5-5-5--|

Ab ---5-5-5-5-5-5-10-10-10-5-5-5--|

Db ---5-5-5-5-5-5-10-10-10-5-5-5--|

Ending -

Eb -------|

Bb -------|

Gb -------|

Db -------|

Ab -------|

Db --10b--|

Guitar 2 -

Play with Guitar 1 2x, then this

Eb -------------------------|

Bb -------------------------|

Gb ----129--------10-10----|

Db -------------------------|

Ab ----107---------8-------|

Db -------------------------|

Eb --------------10-----------|

Bb -----12-13-12----13-12-----|

Gb --10-------------------12--|

Db ---------------------------|

Ab ---------------------------|

Db ---------------------------|

Eb -------------------------|

Bb -------------------------|

Gb ----129--------10-10----|

Db -------------------------|

Ab ----107---------8-------|

Db -------------------------|

Eb --------------10---------|

Bb -----12-13-12-12-12-12--|

Gb --10-------------12-12--|

Db -------------------------|

Ab -------------------------|

Db -------------------------|

=================================================

Outro Chorus

Both Guitars:

Eb -------------------------------|

Bb -------------------------------|

Gb -------9-10-10-----------------| play 3x, then

Db ---7-7-7--7--7-7--3-3-3-3-3-3--|

Ab ---7-7-7--7--7-7--3-3-3-3-3-3--|

Db ---7-7-7--7--7-7--3-3-3-3-3-3--|

Guitar 1:

Eb --------------------------------|

Bb --------------------------------|

Gb --------------------------------| play 1x

Db ---0-0-0-0-0-0--3-3-3-3-3-3--7--|

Ab ---0-0-0-0-0-0--3-3-3-3-3-3--7--|

Db ---0-0-0-0-0-0--3-3-3-3-3-3--7--|

Guitar 2:

Eb --------------------------------|

Bb --------------------------------|

Gb ---7-7-7-7-7-7--5-5-5-5-5-5-----| play 1x

Db -----------------------------7--|

Ab ---5-5-5-5-5-5--3-3-3-3-3-3--7--|

Db -----------------------------7--|

then,

Guitar 1:

Eb -------------------------------|

Bb -------------------------------|

Gb -------9-10-10-----------------| play 3x, then

Db ---7-7-7--7--7-7--3-3-3-3-3-3--|

Ab ---7-7-7--7--7-7--3-3-3-3-3-3--|

Db ---7-7-7--7--7-7--3-3-3-3-3-3--|

Eb -------------------|

Bb -------------------|

Gb -------------------|

Db ---0-0-0-0-0-0--3--|

Ab ---0-0-0-0-0-0--3--|

Db ---0-0-0-0-0-0--3--|

Guitar 2:

Eb --------------10-----------|

Bb --10-12-13-12----13-12-----|

Gb -----------------------12--| play 3x, then

Db ---------------------------|

Ab ---------------------------|

Db ---------------------------|

Eb -------------------|

Bb -------------------|

Gb -------------------|

Db -------------------|

Ab --107--------8----|

Db -------------------|

==============================================

Visit band at: http://www.10yearsmusic.com

E-Mail corrections/adulation/flames to: jnorfleet@bellsouth.net

Get this song at:  amazon.com sheetmusicplus.com

Share your thoughts

0 Comments found